ISO-10303-21;
HEADER;
FILE_DESCRIPTION (( 'STEP AP203' ),
    '1' );
FILE_NAME ('QM-AAHWP-10-550-750-M.STEP',
    '2021-01-05T02:32:23',
    ( '' ),
    ( '' ),
    'SwSTEP 2.0',
    'SolidWorks 2020',
    '' );
FILE_SCHEMA (( 'CONFIG_CONTROL_DESIGN' ));
ENDSEC;

DATA;
#1 = EDGE_LOOP ( 'NONE', ( #112, #57 ) ) ;
#2 = APPLICATION_CONTEXT ( 'configuration controlled 3d designs of mechanical parts and assemblies' ) ;
#3 = ADVANCED_FACE ( 'NONE', ( #312 ), #33, .F. ) ;
#4 = VERTEX_POINT ( 'NONE', #306 ) ;
#5 = CIRCLE ( 'NONE', #193, 12.69999999999999929 ) ;
#6 = DIRECTION ( 'NONE',  ( -1.000000000000000000, -0.000000000000000000, -0.000000000000000000 ) ) ;
#7 = EDGE_CURVE ( 'NONE', #183, #190, #179, .T. ) ;
#8 = DATE_TIME_ROLE ( 'creation_date' ) ;
#9 = DIRECTION ( 'NONE',  ( 0.000000000000000000, 0.000000000000000000, 1.000000000000000000 ) ) ;
#10 = APPLICATION_PROTOCOL_DEFINITION ( 'international standard', 'config_control_design', 1994, #2 ) ;
#11 = CARTESIAN_POINT ( 'NONE',  ( -1.614212418857619014, 0.000000000000000000, 0.000000000000000000 ) ) ;
#12 = ORIENTED_EDGE ( 'NONE', *, *, #119, .T. ) ;
#13 = VECTOR ( 'NONE', #172, 1000.000000000000000 ) ;
#14 = LOCAL_TIME ( 10, 32, 23.00000000000000000, #208 ) ;
#15 = ADVANCED_FACE ( 'NONE', ( #311 ), #84, .F. ) ;
#16 = DIRECTION ( 'NONE',  ( 0.000000000000000000, 0.000000000000000000, 1.000000000000000000 ) ) ;
#17 = VERTEX_POINT ( 'NONE', #136 ) ;
#18 = CARTESIAN_POINT ( 'NONE',  ( -1.614212418857619014, 6.123233995736767268E-16, -5.000000000000000888 ) ) ;
#19 =( NAMED_UNIT ( * ) PLANE_ANGLE_UNIT ( ) SI_UNIT ( $, .RADIAN. ) );
#20 = AXIS2_PLACEMENT_3D ( 'NONE', #274, #71, #144 ) ;
#21 = AXIS2_PLACEMENT_3D ( 'NONE', #226, #301, #146 ) ;
#22 = CARTESIAN_POINT ( 'NONE',  ( -3.000000000000000000, 1.555301434917138433E-15, -12.69999999999999929 ) ) ;
#23 = AXIS2_PLACEMENT_3D ( 'NONE', #228, #325, #263 ) ;
#24 = VECTOR ( 'NONE', #96, 1000.000000000000000 ) ;
#25 = CC_DESIGN_PERSON_AND_ORGANIZATION_ASSIGNMENT ( #203, #248, ( #130 ) ) ;
#26 = APPLICATION_CONTEXT ( 'configuration controlled 3d designs of mechanical parts and assemblies' ) ;
#27 = EDGE_CURVE ( 'NONE', #207, #17, #229, .T. ) ;
#28 = AXIS2_PLACEMENT_3D ( 'NONE', #11, #276, #145 ) ;
#29 = LOCAL_TIME ( 10, 32, 23.00000000000000000, #38 ) ;
#30 = PERSON_AND_ORGANIZATION_ROLE ( 'design_supplier' ) ;
#31 = ORIENTED_EDGE ( 'NONE', *, *, #125, .T. ) ;
#32 = VERTEX_POINT ( 'NONE', #143 ) ;
#33 = PLANE ( 'NONE',  #225 ) ;
#34 = CARTESIAN_POINT ( 'NONE',  ( 0.5000000000000002220, 5.000000000000000000, 0.000000000000000000 ) ) ;
#35 = ORIENTED_EDGE ( 'NONE', *, *, #68, .T. ) ;
#36 = CC_DESIGN_DATE_AND_TIME_ASSIGNMENT ( #176, #53, ( #239 ) ) ;
#37 = CARTESIAN_POINT ( 'NONE',  ( -3.000000000000000000, 0.000000000000000000, 0.000000000000000000 ) ) ;
#38 = COORDINATED_UNIVERSAL_TIME_OFFSET ( 8, 0, .AHEAD. ) ;
#39 = FACE_OUTER_BOUND ( 'NONE', #266, .T. ) ;
#40 = COORDINATED_UNIVERSAL_TIME_OFFSET ( 8, 0, .AHEAD. ) ;
#41 = PERSON ( 'UNSPECIFIED', 'UNSPECIFIED', 'UNSPECIFIED', ('UNSPECIFIED'), ('UNSPECIFIED'), ('UNSPECIFIED') ) ;
#42 = DIRECTION ( 'NONE',  ( 0.000000000000000000, 0.000000000000000000, 1.000000000000000000 ) ) ;
#43 = CC_DESIGN_PERSON_AND_ORGANIZATION_ASSIGNMENT ( #287, #133, ( #239 ) ) ;
#44 = AXIS2_PLACEMENT_3D ( 'NONE', #289, #59, #265 ) ;
#45 = CARTESIAN_POINT ( 'NONE',  ( 0.5000000000000004441, 0.000000000000000000, 0.000000000000000000 ) ) ;
#46 = ORIENTED_EDGE ( 'NONE', *, *, #196, .T. ) ;
#47 = APPROVAL_PERSON_ORGANIZATION ( #316, #82, #118 ) ;
#48 = CARTESIAN_POINT ( 'NONE',  ( -0.5000000000000002220, 0.000000000000000000, 0.000000000000000000 ) ) ;
#49 = APPROVAL ( #332, 'UNSPECIFIED' ) ;
#50 = AXIS2_PLACEMENT_3D ( 'NONE', #219, #247, #9 ) ;
#51 = CARTESIAN_POINT ( 'NONE',  ( -1.614212418857619014, 1.555301434917138433E-15, -12.69999999999999929 ) ) ;
#52 =( LENGTH_UNIT ( ) NAMED_UNIT ( * ) SI_UNIT ( .MILLI., .METRE. ) );
#53 = DATE_TIME_ROLE ( 'classification_date' ) ;
#54 = AXIS2_PLACEMENT_3D ( 'NONE', #279, #78, #202 ) ;
#55 = PERSON_AND_ORGANIZATION ( #41, #260 ) ;
#56 = ORIENTED_EDGE ( 'NONE', *, *, #280, .F. ) ;
#57 = ORIENTED_EDGE ( 'NONE', *, *, #7, .F. ) ;
#58 = EDGE_CURVE ( 'NONE', #330, #32, #167, .T. ) ;
#59 = DIRECTION ( 'NONE',  ( 1.000000000000000000, 0.000000000000000000, 0.000000000000000000 ) ) ;
#60 = EDGE_CURVE ( 'NONE', #181, #214, #89, .T. ) ;
#61 = ORIENTED_EDGE ( 'NONE', *, *, #304, .T. ) ;
#62 = ADVANCED_FACE ( 'NONE', ( #268, #117 ), #165, .F. ) ;
#63 = CC_DESIGN_PERSON_AND_ORGANIZATION_ASSIGNMENT ( #305, #80, ( #99 ) ) ;
#64 = EDGE_LOOP ( 'NONE', ( #178, #56 ) ) ;
#65 = APPROVAL_DATE_TIME ( #154, #310 ) ;
#66 = PLANE ( 'NONE',  #212 ) ;
#67 = CALENDAR_DATE ( 2021, 5, 1 ) ;
#68 = EDGE_CURVE ( 'NONE', #4, #131, #188, .T. ) ;
#69 = DIRECTION ( 'NONE',  ( 0.000000000000000000, 0.000000000000000000, 1.000000000000000000 ) ) ;
#70 = DIRECTION ( 'NONE',  ( -1.000000000000000000, -0.000000000000000000, -0.000000000000000000 ) ) ;
#71 = DIRECTION ( 'NONE',  ( -1.000000000000000000, -0.000000000000000000, -0.000000000000000000 ) ) ;
#72 = AXIS2_PLACEMENT_3D ( 'NONE', #195, #259, #324 ) ;
#73 = CARTESIAN_POINT ( 'NONE',  ( -3.000000000000000000, 0.000000000000000000, 5.000000000000000000 ) ) ;
#74 = CARTESIAN_POINT ( 'NONE',  ( 3.000000000000000000, 0.000000000000000000, 0.000000000000000000 ) ) ;
#75 = AXIS2_PLACEMENT_3D ( 'NONE', #227, #230, #299 ) ;
#76 = DIRECTION ( 'NONE',  ( 1.000000000000000000, 0.000000000000000000, 0.000000000000000000 ) ) ;
#77 = ADVANCED_FACE ( 'NONE', ( #292 ), #246, .T. ) ;
#78 = DIRECTION ( 'NONE',  ( -1.000000000000000000, -0.000000000000000000, -0.000000000000000000 ) ) ;
#79 = CALENDAR_DATE ( 2021, 5, 1 ) ;
#80 = PERSON_AND_ORGANIZATION_ROLE ( 'creator' ) ;
#81 = CARTESIAN_POINT ( 'NONE',  ( 3.000000000000000000, 0.000000000000000000, 0.000000000000000000 ) ) ;
#82 = APPROVAL ( #261, 'UNSPECIFIED' ) ;
#83 = ORIENTED_EDGE ( 'NONE', *, *, #194, .F. ) ;
#84 = PLANE ( 'NONE',  #44 ) ;
#85 = AXIS2_PLACEMENT_3D ( 'NONE', #45, #255, #296 ) ;
#86 = ORIENTED_EDGE ( 'NONE', *, *, #329, .T. ) ;
#87 = CIRCLE ( 'NONE', #75, 5.000000000000000000 ) ;
#88 = EDGE_LOOP ( 'NONE', ( #244, #160 ) ) ;
#89 = LINE ( 'NONE', #18, #24 ) ;
#90 = SHAPE_DEFINITION_REPRESENTATION ( #302, #149 ) ;
#91 = AXIS2_PLACEMENT_3D ( 'NONE', #294, #318, #215 ) ;
#92 = CARTESIAN_POINT ( 'NONE',  ( 3.000000000000000000, 0.000000000000000000, 12.69999999999999929 ) ) ;
#93 = CIRCLE ( 'NONE', #21, 5.000000000000000888 ) ;
#94 = DIRECTION ( 'NONE',  ( 1.000000000000000000, 0.000000000000000000, 0.000000000000000000 ) ) ;
#95 = DESIGN_CONTEXT ( 'detailed design', #2, 'design' ) ;
#96 = DIRECTION ( 'NONE',  ( -1.000000000000000000, -0.000000000000000000, -0.000000000000000000 ) ) ;
#97 = CYLINDRICAL_SURFACE ( 'NONE', #91, 12.69999999999999929 ) ;
#98 = PRODUCT_DEFINITION ( 'UNKNOWN', '', #99, #95 ) ;
#99 = PRODUCT_DEFINITION_FORMATION_WITH_SPECIFIED_SOURCE ( 'ANY', '', #130, .NOT_KNOWN. ) ;
#100 =( NAMED_UNIT ( * ) SI_UNIT ( $, .STERADIAN. ) SOLID_ANGLE_UNIT ( ) );
#101 = CARTESIAN_POINT ( 'NONE',  ( -1.614212418857619014, 6.123233995736767268E-16, -5.000000000000000888 ) ) ;
#102 = EDGE_CURVE ( 'NONE', #214, #131, #113, .T. ) ;
#103 = CC_DESIGN_PERSON_AND_ORGANIZATION_ASSIGNMENT ( #55, #30, ( #99 ) ) ;
#104 = DIRECTION ( 'NONE',  ( 0.000000000000000000, 0.000000000000000000, 1.000000000000000000 ) ) ;
#105 = DIRECTION ( 'NONE',  ( -1.000000000000000000, -0.000000000000000000, -0.000000000000000000 ) ) ;
#106 = PERSON_AND_ORGANIZATION ( #41, #260 ) ;
#107 = ORIENTED_EDGE ( 'NONE', *, *, #237, .T. ) ;
#108 = APPROVAL_ROLE ( '' ) ;
#109 = EDGE_LOOP ( 'NONE', ( #46, #12 ) ) ;
#110 = EDGE_LOOP ( 'NONE', ( #273, #137, #31, #253 ) ) ;
#111 = ADVANCED_FACE ( 'NONE', ( #321 ), #97, .T. ) ;
#112 = ORIENTED_EDGE ( 'NONE', *, *, #329, .F. ) ;
#113 = CIRCLE ( 'NONE', #151, 5.000000000000000000 ) ;
#114 = EDGE_LOOP ( 'NONE', ( #234, #236 ) ) ;
#115 = UNCERTAINTY_MEASURE_WITH_UNIT (LENGTH_MEASURE( 1.000000000000000082E-05 ), #52, 'distance_accuracy_value', 'NONE');
#116 = CYLINDRICAL_SURFACE ( 'NONE', #28, 5.000000000000000888 ) ;
#117 = FACE_OUTER_BOUND ( 'NONE', #109, .T. ) ;
#118 = APPROVAL_ROLE ( '' ) ;
#119 = EDGE_CURVE ( 'NONE', #211, #159, #331, .T. ) ;
#120 = FACE_OUTER_BOUND ( 'NONE', #1, .T. ) ;
#121 = ORIENTED_EDGE ( 'NONE', *, *, #102, .T. ) ;
#122 = DIRECTION ( 'NONE',  ( 0.000000000000000000, 0.000000000000000000, -1.000000000000000000 ) ) ;
#123 = ORIENTED_EDGE ( 'NONE', *, *, #125, .F. ) ;
#124 = CARTESIAN_POINT ( 'NONE',  ( 3.000000000000000000, 12.69999999999999929, 0.000000000000000000 ) ) ;
#125 = EDGE_CURVE ( 'NONE', #32, #207, #223, .T. ) ;
#126 = CYLINDRICAL_SURFACE ( 'NONE', #220, 5.000000000000000888 ) ;
#127 = CARTESIAN_POINT ( 'NONE',  ( -3.000000000000000000, 0.000000000000000000, 0.000000000000000000 ) ) ;
#128 = DIRECTION ( 'NONE',  ( -1.000000000000000000, -0.000000000000000000, -0.000000000000000000 ) ) ;
#129 = DATE_AND_TIME ( #67, #29 ) ;
#130 = PRODUCT ( 'QM-AAHWP-10-550-750-M', 'QM-AAHWP-10-550-750-M', '', ( #142 ) ) ;
#131 = VERTEX_POINT ( 'NONE', #73 ) ;
#132 = ADVANCED_FACE ( 'NONE', ( #139 ), #116, .F. ) ;
#133 = PERSON_AND_ORGANIZATION_ROLE ( 'classification_officer' ) ;
#134 = EDGE_LOOP ( 'NONE', ( #288, #83 ) ) ;
#135 = DIRECTION ( 'NONE',  ( -0.000000000000000000, 0.000000000000000000, 1.000000000000000000 ) ) ;
#136 = CARTESIAN_POINT ( 'NONE',  ( 0.5000000000000004441, 6.123233995736766282E-16, -5.000000000000000000 ) ) ;
#137 = ORIENTED_EDGE ( 'NONE', *, *, #205, .F. ) ;
#138 = ADVANCED_FACE ( 'NONE', ( #120, #224 ), #66, .F. ) ;
#139 = FACE_OUTER_BOUND ( 'NONE', #290, .T. ) ;
#140 = COORDINATED_UNIVERSAL_TIME_OFFSET ( 8, 0, .AHEAD. ) ;
#141 = CYLINDRICAL_SURFACE ( 'NONE', #50, 5.000000000000000888 ) ;
#142 = MECHANICAL_CONTEXT ( 'NONE', #26, 'mechanical' ) ;
#143 = CARTESIAN_POINT ( 'NONE',  ( 3.000000000000000000, 0.000000000000000000, 5.000000000000001776 ) ) ;
#144 = DIRECTION ( 'NONE',  ( 0.000000000000000000, 0.000000000000000000, 1.000000000000000000 ) ) ;
#145 = DIRECTION ( 'NONE',  ( 0.000000000000000000, 0.000000000000000000, 1.000000000000000000 ) ) ;
#146 = DIRECTION ( 'NONE',  ( 0.000000000000000000, 0.000000000000000000, -1.000000000000000000 ) ) ;
#147 = VECTOR ( 'NONE', #191, 1000.000000000000000 ) ;
#148 = APPROVAL_PERSON_ORGANIZATION ( #284, #310, #108 ) ;
#149 = ADVANCED_BREP_SHAPE_REPRESENTATION ( 'QM-AAHWP-10-550-750-M', ( #171, #23 ), #169 ) ;
#150 = LINE ( 'NONE', #101, #199 ) ;
#151 = AXIS2_PLACEMENT_3D ( 'NONE', #185, #6, #69 ) ;
#152 = CYLINDRICAL_SURFACE ( 'NONE', #54, 5.000000000000000888 ) ;
#153 = LOCAL_TIME ( 10, 32, 23.00000000000000000, #40 ) ;
#154 = DATE_AND_TIME ( #184, #213 ) ;
#155 = ORIENTED_EDGE ( 'NONE', *, *, #68, .F. ) ;
#156 = ORIENTED_EDGE ( 'NONE', *, *, #254, .T. ) ;
#157 = CC_DESIGN_DATE_AND_TIME_ASSIGNMENT ( #164, #8, ( #98 ) ) ;
#158 = CIRCLE ( 'NONE', #231, 12.69999999999999929 ) ;
#159 = VERTEX_POINT ( 'NONE', #323 ) ;
#160 = ORIENTED_EDGE ( 'NONE', *, *, #58, .T. ) ;
#161 = DIRECTION ( 'NONE',  ( -1.000000000000000000, 0.000000000000000000, -0.000000000000000000 ) ) ;
#162 = DIRECTION ( 'NONE',  ( -1.000000000000000000, 0.000000000000000000, -0.000000000000000000 ) ) ;
#163 = CC_DESIGN_SECURITY_CLASSIFICATION ( #239, ( #99 ) ) ;
#164 = DATE_AND_TIME ( #79, #221 ) ;
#165 = PLANE ( 'NONE',  #210 ) ;
#166 = EDGE_LOOP ( 'NONE', ( #262, #314, #291, #123 ) ) ;
#167 = CIRCLE ( 'NONE', #267, 5.000000000000001776 ) ;
#168 = CARTESIAN_POINT ( 'NONE',  ( -1.614212418857619014, 0.000000000000000000, 5.000000000000000888 ) ) ;
#169 =( GEOMETRIC_REPRESENTATION_CONTEXT ( 3 ) GLOBAL_UNCERTAINTY_ASSIGNED_CONTEXT ( ( #115 ) ) GLOBAL_UNIT_ASSIGNED_CONTEXT ( ( #52, #19, #100 ) ) REPRESENTATION_CONTEXT ( 'NONE', 'WORKASPACE' ) );
#170 = DIRECTION ( 'NONE',  ( 0.000000000000000000, 0.000000000000000000, 1.000000000000000000 ) ) ;
#171 = MANIFOLD_SOLID_BREP ( 'Ðý×', #326 ) ;
#172 = DIRECTION ( 'NONE',  ( -1.000000000000000000, -0.000000000000000000, -0.000000000000000000 ) ) ;
#173 = CIRCLE ( 'NONE', #72, 5.000000000000001776 ) ;
#174 = CC_DESIGN_APPROVAL ( #49, ( #99 ) ) ;
#175 = DIRECTION ( 'NONE',  ( -1.000000000000000000, -0.000000000000000000, -0.000000000000000000 ) ) ;
#176 = DATE_AND_TIME ( #235, #14 ) ;
#177 = ORIENTED_EDGE ( 'NONE', *, *, #60, .T. ) ;
#178 = ORIENTED_EDGE ( 'NONE', *, *, #237, .F. ) ;
#179 = CIRCLE ( 'NONE', #243, 12.69999999999999929 ) ;
#180 = ORIENTED_EDGE ( 'NONE', *, *, #119, .F. ) ;
#181 = VERTEX_POINT ( 'NONE', #270 ) ;
#182 = ADVANCED_FACE ( 'NONE', ( #39 ), #141, .F. ) ;
#183 = VERTEX_POINT ( 'NONE', #216 ) ;
#184 = CALENDAR_DATE ( 2021, 5, 1 ) ;
#185 = CARTESIAN_POINT ( 'NONE',  ( -3.000000000000000000, 0.000000000000000000, 0.000000000000000000 ) ) ;
#186 = APPROVAL_DATE_TIME ( #269, #82 ) ;
#187 = CARTESIAN_POINT ( 'NONE',  ( 0.5000000000000004441, 0.000000000000000000, 0.000000000000000000 ) ) ;
#188 = LINE ( 'NONE', #192, #147 ) ;
#189 = PRODUCT_RELATED_PRODUCT_CATEGORY ( 'detail', '', ( #130 ) ) ;
#190 = VERTEX_POINT ( 'NONE', #92 ) ;
#191 = DIRECTION ( 'NONE',  ( -1.000000000000000000, -0.000000000000000000, -0.000000000000000000 ) ) ;
#192 = CARTESIAN_POINT ( 'NONE',  ( -1.614212418857619014, 0.000000000000000000, 5.000000000000000888 ) ) ;
#193 = AXIS2_PLACEMENT_3D ( 'NONE', #127, #105, #282 ) ;
#194 = EDGE_CURVE ( 'NONE', #17, #207, #238, .T. ) ;
#195 = CARTESIAN_POINT ( 'NONE',  ( 3.000000000000000000, 0.000000000000000000, 0.000000000000000000 ) ) ;
#196 = EDGE_CURVE ( 'NONE', #159, #211, #5, .T. ) ;
#197 = CARTESIAN_POINT ( 'NONE',  ( -1.614212418857619014, 0.000000000000000000, 0.000000000000000000 ) ) ;
#198 = CARTESIAN_POINT ( 'NONE',  ( -1.614212418857619014, 0.000000000000000000, 12.69999999999999929 ) ) ;
#199 = VECTOR ( 'NONE', #258, 1000.000000000000000 ) ;
#200 = CARTESIAN_POINT ( 'NONE',  ( -3.000000000000000000, 6.123233995736766282E-16, -5.000000000000000000 ) ) ;
#201 = EDGE_CURVE ( 'NONE', #330, #17, #150, .T. ) ;
#202 = DIRECTION ( 'NONE',  ( 0.000000000000000000, 0.000000000000000000, 1.000000000000000000 ) ) ;
#203 = PERSON_AND_ORGANIZATION ( #41, #260 ) ;
#204 = EDGE_LOOP ( 'NONE', ( #86, #61, #222, #242 ) ) ;
#205 = EDGE_CURVE ( 'NONE', #32, #330, #173, .T. ) ;
#206 = AXIS2_PLACEMENT_3D ( 'NONE', #48, #76, #298 ) ;
#207 = VERTEX_POINT ( 'NONE', #328 ) ;
#208 = COORDINATED_UNIVERSAL_TIME_OFFSET ( 8, 0, .AHEAD. ) ;
#209 = DIRECTION ( 'NONE',  ( 0.000000000000000000, 0.000000000000000000, 1.000000000000000000 ) ) ;
#210 = AXIS2_PLACEMENT_3D ( 'NONE', #272, #94, #122 ) ;
#211 = VERTEX_POINT ( 'NONE', #22 ) ;
#212 = AXIS2_PLACEMENT_3D ( 'NONE', #124, #162, #315 ) ;
#213 = LOCAL_TIME ( 10, 32, 23.00000000000000000, #140 ) ;
#214 = VERTEX_POINT ( 'NONE', #200 ) ;
#215 = DIRECTION ( 'NONE',  ( 0.000000000000000000, 0.000000000000000000, 1.000000000000000000 ) ) ;
#216 = CARTESIAN_POINT ( 'NONE',  ( 3.000000000000000000, 1.555301434917138433E-15, -12.69999999999999929 ) ) ;
#217 = CALENDAR_DATE ( 2021, 5, 1 ) ;
#218 = CC_DESIGN_PERSON_AND_ORGANIZATION_ASSIGNMENT ( #106, #334, ( #98 ) ) ;
#219 = CARTESIAN_POINT ( 'NONE',  ( -1.614212418857619014, 0.000000000000000000, 0.000000000000000000 ) ) ;
#220 = AXIS2_PLACEMENT_3D ( 'NONE', #197, #128, #104 ) ;
#221 = LOCAL_TIME ( 10, 32, 23.00000000000000000, #240 ) ;
#222 = ORIENTED_EDGE ( 'NONE', *, *, #196, .F. ) ;
#223 = LINE ( 'NONE', #168, #250 ) ;
#224 = FACE_BOUND ( 'NONE', #88, .T. ) ;
#225 = AXIS2_PLACEMENT_3D ( 'NONE', #34, #161, #135 ) ;
#226 = CARTESIAN_POINT ( 'NONE',  ( -0.5000000000000002220, 0.000000000000000000, 0.000000000000000000 ) ) ;
#227 = CARTESIAN_POINT ( 'NONE',  ( -3.000000000000000000, 0.000000000000000000, 0.000000000000000000 ) ) ;
#228 = CARTESIAN_POINT ( 'NONE',  ( 0.000000000000000000, 0.000000000000000000, 0.000000000000000000 ) ) ;
#229 = CIRCLE ( 'NONE', #85, 5.000000000000000000 ) ;
#230 = DIRECTION ( 'NONE',  ( -1.000000000000000000, -0.000000000000000000, -0.000000000000000000 ) ) ;
#231 = AXIS2_PLACEMENT_3D ( 'NONE', #74, #303, #170 ) ;
#232 = LINE ( 'NONE', #198, #245 ) ;
#233 = SECURITY_CLASSIFICATION_LEVEL ( 'unclassified' ) ;
#234 = ORIENTED_EDGE ( 'NONE', *, *, #254, .F. ) ;
#235 = CALENDAR_DATE ( 2021, 5, 1 ) ;
#236 = ORIENTED_EDGE ( 'NONE', *, *, #102, .F. ) ;
#237 = EDGE_CURVE ( 'NONE', #4, #181, #93, .T. ) ;
#238 = CIRCLE ( 'NONE', #275, 5.000000000000000000 ) ;
#239 = SECURITY_CLASSIFICATION ( '', '', #233 ) ;
#240 = COORDINATED_UNIVERSAL_TIME_OFFSET ( 8, 0, .AHEAD. ) ;
#241 = ORIENTED_EDGE ( 'NONE', *, *, #322, .T. ) ;
#242 = ORIENTED_EDGE ( 'NONE', *, *, #322, .F. ) ;
#243 = AXIS2_PLACEMENT_3D ( 'NONE', #81, #335, #209 ) ;
#244 = ORIENTED_EDGE ( 'NONE', *, *, #205, .T. ) ;
#245 = VECTOR ( 'NONE', #175, 1000.000000000000000 ) ;
#246 = CYLINDRICAL_SURFACE ( 'NONE', #20, 12.69999999999999929 ) ;
#247 = DIRECTION ( 'NONE',  ( -1.000000000000000000, -0.000000000000000000, -0.000000000000000000 ) ) ;
#248 = PERSON_AND_ORGANIZATION_ROLE ( 'design_owner' ) ;
#249 = DIRECTION ( 'NONE',  ( -1.000000000000000000, -0.000000000000000000, -0.000000000000000000 ) ) ;
#250 = VECTOR ( 'NONE', #249, 1000.000000000000000 ) ;
#251 = CARTESIAN_POINT ( 'NONE',  ( 3.000000000000000000, 0.000000000000000000, 0.000000000000000000 ) ) ;
#252 = APPROVAL_PERSON_ORGANIZATION ( #293, #49, #271 ) ;
#253 = ORIENTED_EDGE ( 'NONE', *, *, #27, .T. ) ;
#254 = EDGE_CURVE ( 'NONE', #131, #214, #87, .T. ) ;
#255 = DIRECTION ( 'NONE',  ( -1.000000000000000000, -0.000000000000000000, -0.000000000000000000 ) ) ;
#256 = FACE_OUTER_BOUND ( 'NONE', #166, .T. ) ;
#257 = APPLICATION_PROTOCOL_DEFINITION ( 'international standard', 'config_control_design', 1994, #26 ) ;
#258 = DIRECTION ( 'NONE',  ( -1.000000000000000000, -0.000000000000000000, -0.000000000000000000 ) ) ;
#259 = DIRECTION ( 'NONE',  ( -1.000000000000000000, -0.000000000000000000, -0.000000000000000000 ) ) ;
#260 = ORGANIZATION ( 'UNSPECIFIED', 'UNSPECIFIED', '' ) ;
#261 = APPROVAL_STATUS ( 'not_yet_approved' ) ;
#262 = ORIENTED_EDGE ( 'NONE', *, *, #58, .F. ) ;
#263 = DIRECTION ( 'NONE',  ( 1.000000000000000000, 0.000000000000000000, 0.000000000000000000 ) ) ;
#264 = ORIENTED_EDGE ( 'NONE', *, *, #60, .F. ) ;
#265 = DIRECTION ( 'NONE',  ( 0.000000000000000000, 0.000000000000000000, -1.000000000000000000 ) ) ;
#266 = EDGE_LOOP ( 'NONE', ( #264, #286, #35, #156 ) ) ;
#267 = AXIS2_PLACEMENT_3D ( 'NONE', #251, #70, #16 ) ;
#268 = FACE_BOUND ( 'NONE', #114, .T. ) ;
#269 = DATE_AND_TIME ( #217, #153 ) ;
#270 = CARTESIAN_POINT ( 'NONE',  ( -0.5000000000000002220, 6.123233995736767268E-16, -5.000000000000000888 ) ) ;
#271 = APPROVAL_ROLE ( '' ) ;
#272 = CARTESIAN_POINT ( 'NONE',  ( -3.000000000000000000, 5.000000000000000000, 0.000000000000000000 ) ) ;
#273 = ORIENTED_EDGE ( 'NONE', *, *, #201, .F. ) ;
#274 = CARTESIAN_POINT ( 'NONE',  ( -1.614212418857619014, 0.000000000000000000, 0.000000000000000000 ) ) ;
#275 = AXIS2_PLACEMENT_3D ( 'NONE', #187, #319, #295 ) ;
#276 = DIRECTION ( 'NONE',  ( -1.000000000000000000, -0.000000000000000000, -0.000000000000000000 ) ) ;
#277 = ADVANCED_FACE ( 'NONE', ( #327 ), #126, .F. ) ;
#278 = CARTESIAN_POINT ( 'NONE',  ( 3.000000000000000000, 6.123233995736768255E-16, -5.000000000000001776 ) ) ;
#279 = CARTESIAN_POINT ( 'NONE',  ( -1.614212418857619014, 0.000000000000000000, 0.000000000000000000 ) ) ;
#280 = EDGE_CURVE ( 'NONE', #181, #4, #300, .T. ) ;
#281 = LINE ( 'NONE', #51, #13 ) ;
#282 = DIRECTION ( 'NONE',  ( 0.000000000000000000, 0.000000000000000000, 1.000000000000000000 ) ) ;
#283 = ADVANCED_FACE ( 'NONE', ( #256 ), #152, .F. ) ;
#284 = PERSON_AND_ORGANIZATION ( #41, #260 ) ;
#285 = APPROVAL_DATE_TIME ( #129, #49 ) ;
#286 = ORIENTED_EDGE ( 'NONE', *, *, #280, .T. ) ;
#287 = PERSON_AND_ORGANIZATION ( #41, #260 ) ;
#288 = ORIENTED_EDGE ( 'NONE', *, *, #27, .F. ) ;
#289 = CARTESIAN_POINT ( 'NONE',  ( -0.5000000000000002220, 5.000000000000000000, 0.000000000000000000 ) ) ;
#290 = EDGE_LOOP ( 'NONE', ( #107, #177, #121, #155 ) ) ;
#291 = ORIENTED_EDGE ( 'NONE', *, *, #194, .T. ) ;
#292 = FACE_OUTER_BOUND ( 'NONE', #333, .T. ) ;
#293 = PERSON_AND_ORGANIZATION ( #41, #260 ) ;
#294 = CARTESIAN_POINT ( 'NONE',  ( -1.614212418857619014, 0.000000000000000000, 0.000000000000000000 ) ) ;
#295 = DIRECTION ( 'NONE',  ( 0.000000000000000000, 0.000000000000000000, 1.000000000000000000 ) ) ;
#296 = DIRECTION ( 'NONE',  ( 0.000000000000000000, 0.000000000000000000, 1.000000000000000000 ) ) ;
#297 = DIRECTION ( 'NONE',  ( -1.000000000000000000, -0.000000000000000000, -0.000000000000000000 ) ) ;
#298 = DIRECTION ( 'NONE',  ( 0.000000000000000000, 0.000000000000000000, -1.000000000000000000 ) ) ;
#299 = DIRECTION ( 'NONE',  ( 0.000000000000000000, 0.000000000000000000, 1.000000000000000000 ) ) ;
#300 = CIRCLE ( 'NONE', #206, 5.000000000000000888 ) ;
#301 = DIRECTION ( 'NONE',  ( 1.000000000000000000, 0.000000000000000000, 0.000000000000000000 ) ) ;
#302 = PRODUCT_DEFINITION_SHAPE ( 'NONE', 'NONE',  #98 ) ;
#303 = DIRECTION ( 'NONE',  ( -1.000000000000000000, -0.000000000000000000, -0.000000000000000000 ) ) ;
#304 = EDGE_CURVE ( 'NONE', #183, #211, #281, .T. ) ;
#305 = PERSON_AND_ORGANIZATION ( #41, #260 ) ;
#306 = CARTESIAN_POINT ( 'NONE',  ( -0.5000000000000002220, 0.000000000000000000, 5.000000000000000888 ) ) ;
#307 = CC_DESIGN_APPROVAL ( #310, ( #239 ) ) ;
#308 = ORIENTED_EDGE ( 'NONE', *, *, #304, .F. ) ;
#309 = APPROVAL_STATUS ( 'not_yet_approved' ) ;
#310 = APPROVAL ( #309, 'UNSPECIFIED' ) ;
#311 = FACE_OUTER_BOUND ( 'NONE', #64, .T. ) ;
#312 = FACE_OUTER_BOUND ( 'NONE', #134, .T. ) ;
#313 = CC_DESIGN_APPROVAL ( #82, ( #98 ) ) ;
#314 = ORIENTED_EDGE ( 'NONE', *, *, #201, .T. ) ;
#315 = DIRECTION ( 'NONE',  ( -0.000000000000000000, 0.000000000000000000, 1.000000000000000000 ) ) ;
#316 = PERSON_AND_ORGANIZATION ( #41, #260 ) ;
#317 = AXIS2_PLACEMENT_3D ( 'NONE', #37, #297, #42 ) ;
#318 = DIRECTION ( 'NONE',  ( -1.000000000000000000, -0.000000000000000000, -0.000000000000000000 ) ) ;
#319 = DIRECTION ( 'NONE',  ( -1.000000000000000000, -0.000000000000000000, -0.000000000000000000 ) ) ;
#320 = ORIENTED_EDGE ( 'NONE', *, *, #7, .T. ) ;
#321 = FACE_OUTER_BOUND ( 'NONE', #204, .T. ) ;
#322 = EDGE_CURVE ( 'NONE', #190, #159, #232, .T. ) ;
#323 = CARTESIAN_POINT ( 'NONE',  ( -3.000000000000000000, 0.000000000000000000, 12.69999999999999929 ) ) ;
#324 = DIRECTION ( 'NONE',  ( 0.000000000000000000, 0.000000000000000000, 1.000000000000000000 ) ) ;
#325 = DIRECTION ( 'NONE',  ( 0.000000000000000000, 0.000000000000000000, 1.000000000000000000 ) ) ;
#326 = CLOSED_SHELL ( 'NONE', ( #111, #132, #283, #3, #277, #182, #62, #77, #138, #15 ) ) ;
#327 = FACE_OUTER_BOUND ( 'NONE', #110, .T. ) ;
#328 = CARTESIAN_POINT ( 'NONE',  ( 0.5000000000000004441, 0.000000000000000000, 5.000000000000000000 ) ) ;
#329 = EDGE_CURVE ( 'NONE', #190, #183, #158, .T. ) ;
#330 = VERTEX_POINT ( 'NONE', #278 ) ;
#331 = CIRCLE ( 'NONE', #317, 12.69999999999999929 ) ;
#332 = APPROVAL_STATUS ( 'not_yet_approved' ) ;
#333 = EDGE_LOOP ( 'NONE', ( #308, #320, #241, #180 ) ) ;
#334 = PERSON_AND_ORGANIZATION_ROLE ( 'creator' ) ;
#335 = DIRECTION ( 'NONE',  ( -1.000000000000000000, -0.000000000000000000, -0.000000000000000000 ) ) ;
ENDSEC;
END-ISO-10303-21;
